NUffnang

TAB LAGU :ST12-PUTIH PUTIH MELATI


TAB LAGU :ST12-PUTIH PUTIH MELATI

INTRO ~

E|-----9/8-8/6-6/4-4----------------9/8-8/6-6/5-6-8--9-8-6-------9/8-8/6-
B|-5/7---------------6-4p2h5----5/7--------------------------5/7---------
G|-----------------------------------------------------------------------
D|-----------------------------------------------------------------------
A|-----------------------------------------------------------------------
E|-----------------------------------------------------------------------

E|-6/4-4-----------------------
B|-------6-4-2-4-4/6-4-2-4/2---
G|---------------------------3-
D|-----------------------------
A|-----------------------------
E|-----------------------------

LAGU ~

E|------------------------------------------------------------------------------------------------
B|---6-4-4-2-2-1-1---1-------6-4-4-2-2-1-1---1-2-1-2-----4-4-4-2-4-1-2-4-6-4-2-4----1-2-2--2--4-1-
G|-3---------------3---3---3---------------3-----------1--------------------------1---------------
D|------------------------------------------------------------------------------------------------
A|------------------------------------------------------------------------------------------------
E|------------------------------------------------------------------------------------------------

E|--------------------------------------------------------------------------------
B|---6-4-4-2-2-1-1---1-------6-4-4-2-2-1-1---1-2-1-2-----4-4-4-2-4-1-2-4-6-4-2-4--
G|-3---------------3---3---3---------------3-----------1--------------------------
D|--------------------------------------------------------------------------------
A|--------------------------------------------------------------------------------
E|--------------------------------------------------------------------------------

E|-----------------------------------------------------------------------------------------------
B|---1-2-2-2-2-2-2-4-6---4-2-4-1------7-7-7-6-7-6----6---6---6-9----4---4---4---------4-------4-6
G|-1----------------------------------------------8----8---8-----6----6---6---6-5-5-5---6-5-6----
D|-----------------------------------------------------------------------------------------------
A|-----------------------------------------------------------------------------------------------
E|-----------------------------------------------------------------------------------------------

E|-----------------------------------------------------------
B|-7-6-7-6-7-9-9-----------6--9-6--4---4---4---------4-------
G|-------------------5-6-8-----------6---6---6-5-5-5---6-5-3-
D|-----------------6-----------------------------------------
A|-----------------------------------------------------------
E|-----------------------------------------------------------

SOLO ~

E|----------------------------------------------------9--9-9-9-8------11--11-11-11---------------
B|-5/7-6-7-6-7-6-7/9-7-6-----6---6---6---------------------------11----------------10----10/13---
G|-----------------------8-----8---8---8-6-5-6/8-6------------------------------------10---------
D|-----------------------------------------------------------------------------------------------
A|-----------------------------------------------------------------------------------------------
E|-----------------------------------------------------------------------------------------------

E|----------------------------13-11v-
B|-14-13-11----------------11--------
G|----------10----10-11-13-----------
D|-------------13--------------------
A|-----------------------------------
E|-----------------------------------

LAGU ~

E|------------------------------------------------------------
B|-7-7-7-6-7-6----6---6---6-9----4---4---4---------4-------4-6~
G|-------------8----8---8-----6----6---6---6-5-5-5---6-5-6----
D|------------------------------------------------------------
A|------------------------------------------------------------
E|------------------------------------------------------------

E|-----------------------------------------------------------
B|-7-6-7-6-7-9-9-----------6--9-6--4---4---4---------4-------
G|-------------------5-6-8-----------6---6---6-5-5-5---6-5-3-
D|-----------------6-----------------------------------------
A|-----------------------------------------------------------
E|-----------------------------------------------------------

E|------------------------------------------------------------
B|-7-7-7-6-7-6----6---6---6-9----4---4---4---------4-------4-6~
G|-------------8----8---8-----6----6---6---6-5-5-5---6-5-6----
D|------------------------------------------------------------
A|------------------------------------------------------------
E|------------------------------------------------------------

E|-----------------------------------------------------------
B|-7-6-7-6-7-9-9-----------6--9-6--4---4---4---------4-------
G|-------------------5-6-8-----------6---6---6-5-5-5---6-5-3-
D|-----------------6-----------------------------------------
A|-----------------------------------------------------------
E|-----------------------------------------------------------

OUTRO ~


E|-----9/8-8/6-6/4-4----------------9/8-8/6-6/5-6-8--9-8-6-------9/8-8/6-
B|-5/7---------------6-4p2h5----5/7--------------------------5/7---------
G|-----------------------------------------------------------------------
D|-----------------------------------------------------------------------
A|-----------------------------------------------------------------------
E|-----------------------------------------------------------------------

E|-6/4-4-----------------------
B|-------6-4-2-4-4/6-4-2-4/2---
G|---------------------------3-
D|-----------------------------
A|-----------------------------
E|-----------------------------

Azam lukman

Author & Editor

Has laoreet percipitur ad. Vide interesset in mei, no his legimus verterem. Et nostrum imperdiet appellantur usu, mnesarchum referrentur id vim.

0 comments:

Post a Comment

0

 
biz.